ISO-10303-21;
HEADER;
FILE_DESCRIPTION (( 'STEP AP214' ),
    '1' );
FILE_NAME ('am-3947-100 375H x 100IN Spacer.STEP',
    '2022-09-22T13:59:06',
    ( '' ),
    ( '' ),
    'SwSTEP 2.0',
    'SolidWorks 2022',
    '' );
FILE_SCHEMA (( 'AUTOMOTIVE_DESIGN' ));
ENDSEC;

DATA;
#1 = VECTOR ( 'NONE', #172, 39.37007874015748143 ) ;
#2 = DIRECTION ( 'NONE',  ( -0.5000000000000001110, 0.8660254037844385966, 0.000000000000000000 ) ) ;
#3 = CARTESIAN_POINT ( 'NONE',  ( -0.1082531754730548107, 0.1875000000000000555, -0.1000000000000000056 ) ) ;
#4 = ORIENTED_EDGE ( 'NONE', *, *, #98, .T. ) ;
#5 = DIMENSIONAL_EXPONENTS ( 1.000000000000000000, 0.000000000000000000, 0.000000000000000000, 0.000000000000000000, 0.000000000000000000, 0.000000000000000000, 0.000000000000000000 ) ;
#6 = EDGE_CURVE ( 'NONE', #66, #228, #279, .T. ) ;
#7 = ORIENTED_EDGE ( 'NONE', *, *, #236, .T. ) ;
#8 = ORIENTED_EDGE ( 'NONE', *, *, #281, .T. ) ;
#9 =( GEOMETRIC_REPRESENTATION_CONTEXT ( 3 ) GLOBAL_UNCERTAINTY_ASSIGNED_CONTEXT ( ( #340 ) ) GLOBAL_UNIT_ASSIGNED_CONTEXT ( ( #185, #78, #83 ) ) REPRESENTATION_CONTEXT ( 'NONE', 'WORKASPACE' ) );
#10 = LINE ( 'NONE', #257, #29 ) ;
#11 = VERTEX_POINT ( 'NONE', #304 ) ;
#12 = CARTESIAN_POINT ( 'NONE',  ( -0.2165063509461097047, 3.211045840221350913E-17, -0.1000000000000000056 ) ) ;
#13 = DIRECTION ( 'NONE',  ( 0.5000000000000001110, -0.8660254037844385966, 0.000000000000000000 ) ) ;
#14 = DIRECTION ( 'NONE',  ( 1.000000000000000000, 0.000000000000000000, 0.000000000000000000 ) ) ;
#15 = AXIS2_PLACEMENT_3D ( 'NONE', #268, #17, #14 ) ;
#16 = LINE ( 'NONE', #335, #42 ) ;
#17 = DIRECTION ( 'NONE',  ( 0.000000000000000000, 0.000000000000000000, -1.000000000000000000 ) ) ;
#18 = EDGE_CURVE ( 'NONE', #118, #143, #10, .T. ) ;
#19 = LINE ( 'NONE', #160, #272 ) ;
#20 = AXIS2_PLACEMENT_3D ( 'NONE', #157, #43, #67 ) ;
#21 = LINE ( 'NONE', #187, #72 ) ;
#22 = CARTESIAN_POINT ( 'NONE',  ( 0.1082531754730549634, -0.1874999999999999167, -0.1000000000000000056 ) ) ;
#23 = LINE ( 'NONE', #132, #290 ) ;
#24 = CARTESIAN_POINT ( 'NONE',  ( -0.2165063509461097047, 3.211045840221350913E-17, 0.000000000000000000 ) ) ;
#25 = DIRECTION ( 'NONE',  ( 0.000000000000000000, 0.000000000000000000, 1.000000000000000000 ) ) ;
#26 = APPLICATION_CONTEXT ( 'automotive_design' ) ;
#27 = LINE ( 'NONE', #302, #90 ) ;
#28 = ORIENTED_EDGE ( 'NONE', *, *, #65, .F. ) ;
#29 = VECTOR ( 'NONE', #225, 39.37007874015748143 ) ;
#30 = DIRECTION ( 'NONE',  ( 0.5000000000000002220, 0.8660254037844384856, 0.000000000000000000 ) ) ;
#31 = ORIENTED_EDGE ( 'NONE', *, *, #316, .F. ) ;
#32 = ORIENTED_EDGE ( 'NONE', *, *, #48, .F. ) ;
#33 = CARTESIAN_POINT ( 'NONE',  ( 0.3937007874015748254, -4.821444091131312140E-17, -0.1000000000000000056 ) ) ;
#34 = VECTOR ( 'NONE', #68, 39.37007874015748143 ) ;
#35 = CARTESIAN_POINT ( 'NONE',  ( -0.1082531754730548107, 0.1875000000000000555, 0.000000000000000000 ) ) ;
#36 = ORIENTED_EDGE ( 'NONE', *, *, #154, .T. ) ;
#37 = PLANE ( 'NONE',  #124 ) ;
#38 = PRODUCT_RELATED_PRODUCT_CATEGORY ( 'part', '', ( #117 ) ) ;
#39 = CARTESIAN_POINT ( 'NONE',  ( 0.2165063509461097047, -7.084637897906329745E-17, -0.1000000000000000056 ) ) ;
#40 = VERTEX_POINT ( 'NONE', #33 ) ;
#41 = LINE ( 'NONE', #95, #180 ) ;
#42 = VECTOR ( 'NONE', #101, 39.37007874015748143 ) ;
#43 = DIRECTION ( 'NONE',  ( -0.000000000000000000, -0.000000000000000000, 1.000000000000000000 ) ) ;
#44 = FACE_OUTER_BOUND ( 'NONE', #173, .T. ) ;
#45 = AXIS2_PLACEMENT_3D ( 'NONE', #266, #339, #100 ) ;
#46 = CARTESIAN_POINT ( 'NONE',  ( 0.000000000000000000, 0.000000000000000000, -0.1000000000000000056 ) ) ;
#47 = LENGTH_MEASURE_WITH_UNIT ( LENGTH_MEASURE( 0.02539999999999999897 ), #348 );
#48 = EDGE_CURVE ( 'NONE', #118, #282, #27, .T. ) ;
#49 = LINE ( 'NONE', #128, #102 ) ;
#50 = FILL_AREA_STYLE ('',( #53 ) ) ;
#51 = PRODUCT_DEFINITION_FORMATION_WITH_SPECIFIED_SOURCE ( 'ANY', '', #117, .NOT_KNOWN. ) ;
#52 = ADVANCED_FACE ( 'NONE', ( #234 ), #333, .T. ) ;
#53 = FILL_AREA_STYLE_COLOUR ( '', #119 ) ;
#54 = CARTESIAN_POINT ( 'NONE',  ( -0.3937007874015748254, 0.000000000000000000, 0.000000000000000000 ) ) ;
#55 = AXIS2_PLACEMENT_3D ( 'NONE', #131, #344, #105 ) ;
#56 = EDGE_LOOP ( 'NONE', ( #8, #122, #28, #36 ) ) ;
#57 = ORIENTED_EDGE ( 'NONE', *, *, #69, .T. ) ;
#58 = VERTEX_POINT ( 'NONE', #86 ) ;
#59 = PRODUCT_DEFINITION_CONTEXT ( 'detailed design', #182, 'design' ) ;
#60 = AXIS2_PLACEMENT_3D ( 'NONE', #220, #351, #80 ) ;
#61 = VERTEX_POINT ( 'NONE', #54 ) ;
#62 = CIRCLE ( 'NONE', #76, 0.3937007874015748254 ) ;
#63 = CARTESIAN_POINT ( 'NONE',  ( 0.000000000000000000, 0.000000000000000000, -0.1000000000000000056 ) ) ;
#64 = PRESENTATION_LAYER_ASSIGNMENT (  '', '', ( #291 ) ) ;
#65 = EDGE_CURVE ( 'NONE', #91, #232, #138, .T. ) ;
#66 = VERTEX_POINT ( 'NONE', #89 ) ;
#67 = DIRECTION ( 'NONE',  ( 1.000000000000000000, 0.000000000000000000, 0.000000000000000000 ) ) ;
#68 = DIRECTION ( 'NONE',  ( 0.5000000000000003331, -0.8660254037844383745, 0.000000000000000000 ) ) ;
#69 = EDGE_CURVE ( 'NONE', #61, #153, #203, .T. ) ;
#70 = ORIENTED_EDGE ( 'NONE', *, *, #308, .T. ) ;
#71 = CARTESIAN_POINT ( 'NONE',  ( -0.1082531754730548107, 0.1875000000000000555, -0.1000000000000000056 ) ) ;
#72 = VECTOR ( 'NONE', #250, 39.37007874015748143 ) ;
#73 = COLOUR_RGB ( '',0.2980392156862745057, 0.2980392156862745057, 0.2980392156862745057 ) ;
#74 = CYLINDRICAL_SURFACE ( 'NONE', #129, 0.3937007874015748254 ) ;
#75 = DIRECTION ( 'NONE',  ( -1.000000000000000000, 0.000000000000000000, 0.000000000000000000 ) ) ;
#76 = AXIS2_PLACEMENT_3D ( 'NONE', #93, #209, #202 ) ;
#77 = ADVANCED_FACE ( 'NONE', ( #126, #242 ), #288, .T. ) ;
#78 =( NAMED_UNIT ( * ) PLANE_ANGLE_UNIT ( ) SI_UNIT ( $, .RADIAN. ) );
#79 = DIRECTION ( 'NONE',  ( -1.000000000000000000, -3.154466349054401728E-16, -0.000000000000000000 ) ) ;
#80 = DIRECTION ( 'NONE',  ( -0.5000000000000001110, -0.8660254037844385966, -0.000000000000000000 ) ) ;
#81 = ORIENTED_EDGE ( 'NONE', *, *, #85, .T. ) ;
#82 = DIRECTION ( 'NONE',  ( 0.000000000000000000, -1.000000000000000000, 0.000000000000000000 ) ) ;
#83 =( NAMED_UNIT ( * ) SI_UNIT ( $, .STERADIAN. ) SOLID_ANGLE_UNIT ( ) );
#84 =( NAMED_UNIT ( * ) PLANE_ANGLE_UNIT ( ) SI_UNIT ( $, .RADIAN. ) );
#85 = EDGE_CURVE ( 'NONE', #177, #61, #16, .T. ) ;
#86 = CARTESIAN_POINT ( 'NONE',  ( 0.1082531754730549634, -0.1874999999999999167, -0.1000000000000000056 ) ) ;
#87 = ORIENTED_EDGE ( 'NONE', *, *, #120, .T. ) ;
#88 = ORIENTED_EDGE ( 'NONE', *, *, #18, .F. ) ;
#89 = CARTESIAN_POINT ( 'NONE',  ( -0.1082531754730547829, -0.1874999999999999722, -0.000000000000000000 ) ) ;
#90 = VECTOR ( 'NONE', #328, 39.37007874015749564 ) ;
#91 = VERTEX_POINT ( 'NONE', #39 ) ;
#92 = EDGE_LOOP ( 'NONE', ( #204, #261 ) ) ;
#93 = CARTESIAN_POINT ( 'NONE',  ( 0.000000000000000000, 0.000000000000000000, 0.000000000000000000 ) ) ;
#94 = EDGE_LOOP ( 'NONE', ( #87, #231, #306, #142 ) ) ;
#95 = CARTESIAN_POINT ( 'NONE',  ( 0.1082531754730549634, -0.1874999999999999167, -0.1000000000000000056 ) ) ;
#96 = ORIENTED_EDGE ( 'NONE', *, *, #224, .F. ) ;
#97 = CARTESIAN_POINT ( 'NONE',  ( -0.3937007874015748254, 0.000000000000000000, -0.1000000000000000056 ) ) ;
#98 = EDGE_CURVE ( 'NONE', #334, #66, #240, .T. ) ;
#99 = ORIENTED_EDGE ( 'NONE', *, *, #236, .F. ) ;
#100 = DIRECTION ( 'NONE',  ( 1.000000000000000000, 0.000000000000000000, 0.000000000000000000 ) ) ;
#101 = DIRECTION ( 'NONE',  ( -0.000000000000000000, -0.000000000000000000, 1.000000000000000000 ) ) ;
#102 = VECTOR ( 'NONE', #295, 39.37007874015748143 ) ;
#103 = FACE_OUTER_BOUND ( 'NONE', #329, .T. ) ;
#104 = LINE ( 'NONE', #162, #211 ) ;
#105 = DIRECTION ( 'NONE',  ( 1.000000000000000000, 0.000000000000000000, 0.000000000000000000 ) ) ;
#106 = CARTESIAN_POINT ( 'NONE',  ( -0.1082531754730547829, -0.1874999999999999722, -0.1000000000000000056 ) ) ;
#107 = CIRCLE ( 'NONE', #134, 0.3937007874015748254 ) ;
#108 = SURFACE_SIDE_STYLE ('',( #214 ) ) ;
#109 = PLANE ( 'NONE',  #60 ) ;
#110 = EDGE_CURVE ( 'NONE', #40, #177, #107, .T. ) ;
#111 =( NAMED_UNIT ( * ) PLANE_ANGLE_UNIT ( ) SI_UNIT ( $, .RADIAN. ) );
#112 = ORIENTED_EDGE ( 'NONE', *, *, #184, .T. ) ;
#113 = VECTOR ( 'NONE', #2, 39.37007874015748143 ) ;
#114 = PRESENTATION_STYLE_ASSIGNMENT (( #322 ) ) ;
#115 = AXIS2_PLACEMENT_3D ( 'NONE', #278, #25, #165 ) ;
#116 = ORIENTED_EDGE ( 'NONE', *, *, #110, .T. ) ;
#117 = PRODUCT ( 'am-3947-100 375H x 100IN Spacer', 'am-3947-100 375H x 100IN Spacer', '', ( #227 ) ) ;
#118 = VERTEX_POINT ( 'NONE', #71 ) ;
#119 = COLOUR_RGB ( '',0.2980392156862745057, 0.2980392156862745057, 0.2980392156862745057 ) ;
#120 = EDGE_CURVE ( 'NONE', #259, #66, #341, .T. ) ;
#121 = DIMENSIONAL_EXPONENTS ( 1.000000000000000000, 0.000000000000000000, 0.000000000000000000, 0.000000000000000000, 0.000000000000000000, 0.000000000000000000, 0.000000000000000000 ) ;
#122 = ORIENTED_EDGE ( 'NONE', *, *, #343, .F. ) ;
#123 = DIRECTION ( 'NONE',  ( -0.000000000000000000, -0.000000000000000000, 1.000000000000000000 ) ) ;
#124 = AXIS2_PLACEMENT_3D ( 'NONE', #150, #262, #13 ) ;
#125 = LINE ( 'NONE', #239, #332 ) ;
#126 = FACE_OUTER_BOUND ( 'NONE', #92, .T. ) ;
#127 = DIRECTION ( 'NONE',  ( 1.000000000000000000, 0.000000000000000000, 0.000000000000000000 ) ) ;
#128 = CARTESIAN_POINT ( 'NONE',  ( 0.1082531754730547829, 0.1875000000000000555, 0.000000000000000000 ) ) ;
#129 = AXIS2_PLACEMENT_3D ( 'NONE', #46, #158, #130 ) ;
#130 = DIRECTION ( 'NONE',  ( -1.000000000000000000, 0.000000000000000000, 0.000000000000000000 ) ) ;
#131 = CARTESIAN_POINT ( 'NONE',  ( 0.000000000000000000, 0.000000000000000000, 0.000000000000000000 ) ) ;
#132 = CARTESIAN_POINT ( 'NONE',  ( 0.3937007874015748254, -4.821444091131312140E-17, -0.1000000000000000056 ) ) ;
#133 = EDGE_CURVE ( 'NONE', #177, #40, #271, .T. ) ;
#134 = AXIS2_PLACEMENT_3D ( 'NONE', #265, #123, #127 ) ;
#135 = CARTESIAN_POINT ( 'NONE',  ( -0.1082531754730547829, -0.1874999999999999722, -0.1000000000000000056 ) ) ;
#136 = FILL_AREA_STYLE_COLOUR ( '', #73 ) ;
#137 = CARTESIAN_POINT ( 'NONE',  ( 0.1082531754730547829, 0.1875000000000000555, -0.1000000000000000056 ) ) ;
#138 = LINE ( 'NONE', #255, #113 ) ;
#139 = EDGE_LOOP ( 'NONE', ( #99, #141, #313, #145, #307, #229 ) ) ;
#140 = ADVANCED_FACE ( 'NONE', ( #181 ), #309, .T. ) ;
#141 = ORIENTED_EDGE ( 'NONE', *, *, #6, .F. ) ;
#142 = ORIENTED_EDGE ( 'NONE', *, *, #316, .T. ) ;
#143 = VERTEX_POINT ( 'NONE', #35 ) ;
#144 = VECTOR ( 'NONE', #244, 39.37007874015748143 ) ;
#145 = ORIENTED_EDGE ( 'NONE', *, *, #166, .F. ) ;
#146 = DIRECTION ( 'NONE',  ( -0.000000000000000000, -0.000000000000000000, 1.000000000000000000 ) ) ;
#147 = EDGE_LOOP ( 'NONE', ( #194, #116, #81, #287 ) ) ;
#148 = EDGE_LOOP ( 'NONE', ( #57, #112 ) ) ;
#149 = ORIENTED_EDGE ( 'NONE', *, *, #343, .T. ) ;
#150 = CARTESIAN_POINT ( 'NONE',  ( 0.2165063509461097047, -7.084637897906329745E-17, -0.1000000000000000056 ) ) ;
#151 = ORIENTED_EDGE ( 'NONE', *, *, #48, .T. ) ;
#152 = DIRECTION ( 'NONE',  ( 0.5000000000000003331, -0.8660254037844383745, 0.000000000000000000 ) ) ;
#153 = VERTEX_POINT ( 'NONE', #210 ) ;
#154 = EDGE_CURVE ( 'NONE', #91, #11, #125, .T. ) ;
#155 = DIRECTION ( 'NONE',  ( -0.000000000000000000, -0.000000000000000000, 1.000000000000000000 ) ) ;
#156 = ORIENTED_EDGE ( 'NONE', *, *, #248, .T. ) ;
#157 = CARTESIAN_POINT ( 'NONE',  ( 0.000000000000000000, 0.000000000000000000, 0.000000000000000000 ) ) ;
#158 = DIRECTION ( 'NONE',  ( -0.000000000000000000, -0.000000000000000000, 1.000000000000000000 ) ) ;
#159 = PRODUCT_DEFINITION ( 'UNKNOWN', '', #51, #59 ) ;
#160 = CARTESIAN_POINT ( 'NONE',  ( 0.1082531754730549634, -0.1874999999999999167, 0.000000000000000000 ) ) ;
#161 = FACE_OUTER_BOUND ( 'NONE', #148, .T. ) ;
#162 = CARTESIAN_POINT ( 'NONE',  ( 0.2165063509461097047, -7.084637897906329745E-17, 0.000000000000000000 ) ) ;
#163 = PRESENTATION_STYLE_ASSIGNMENT (( #191 ) ) ;
#164 = DIRECTION ( 'NONE',  ( 0.8660254037844385966, -0.5000000000000003331, 0.000000000000000000 ) ) ;
#165 = DIRECTION ( 'NONE',  ( 1.000000000000000000, 0.000000000000000000, 0.000000000000000000 ) ) ;
#166 = EDGE_CURVE ( 'NONE', #143, #259, #260, .T. ) ;
#167 = VECTOR ( 'NONE', #294, 39.37007874015748143 ) ;
#168 = EDGE_LOOP ( 'NONE', ( #175, #88, #263, #149 ) ) ;
#169 = ORIENTED_EDGE ( 'NONE', *, *, #218, .T. ) ;
#170 = APPLICATION_PROTOCOL_DEFINITION ( 'draft international standard', 'automotive_design', 1998, #182 ) ;
#171 = VERTEX_POINT ( 'NONE', #338 ) ;
#172 = DIRECTION ( 'NONE',  ( 1.000000000000000000, 3.154466349054401728E-16, 0.000000000000000000 ) ) ;
#173 = EDGE_LOOP ( 'NONE', ( #314, #70, #285, #280 ) ) ;
#174 = DIRECTION ( 'NONE',  ( -0.5000000000000003331, 0.8660254037844383745, 0.000000000000000000 ) ) ;
#175 = ORIENTED_EDGE ( 'NONE', *, *, #253, .T. ) ;
#176 = FACE_OUTER_BOUND ( 'NONE', #56, .T. ) ;
#177 = VERTEX_POINT ( 'NONE', #97 ) ;
#178 = ORIENTED_EDGE ( 'NONE', *, *, #193, .T. ) ;
#179 = DIRECTION ( 'NONE',  ( 0.8660254037844384856, 0.5000000000000004441, 0.000000000000000000 ) ) ;
#180 = VECTOR ( 'NONE', #269, 39.37007874015748854 ) ;
#181 = FACE_OUTER_BOUND ( 'NONE', #94, .T. ) ;
#182 = APPLICATION_CONTEXT ( 'automotive_design' ) ;
#183 = DIRECTION ( 'NONE',  ( 0.5000000000000000000, 0.8660254037844385966, 0.000000000000000000 ) ) ;
#184 = EDGE_CURVE ( 'NONE', #153, #61, #62, .T. ) ;
#185 =( CONVERSION_BASED_UNIT ( 'INCH', #350 ) LENGTH_UNIT ( ) NAMED_UNIT ( #311 ) );
#186 = CLOSED_SHELL ( 'NONE', ( #230, #77, #241, #199, #324, #207, #298, #52, #140, #267 ) ) ;
#187 = CARTESIAN_POINT ( 'NONE',  ( -0.2165063509461097047, 3.211045840221350913E-17, -0.1000000000000000056 ) ) ;
#188 = MECHANICAL_DESIGN_GEOMETRIC_PRESENTATION_REPRESENTATION (  '', ( #291 ), #312 ) ;
#189 = CARTESIAN_POINT ( 'NONE',  ( 0.1082531754730547829, 0.1875000000000000555, -0.1000000000000000056 ) ) ;
#190 = LINE ( 'NONE', #137, #277 ) ;
#191 = SURFACE_STYLE_USAGE ( .BOTH. , #251 ) ;
#192 = AXIS2_PLACEMENT_3D ( 'NONE', #292, #179, #174 ) ;
#193 = EDGE_CURVE ( 'NONE', #282, #334, #315, .T. ) ;
#194 = ORIENTED_EDGE ( 'NONE', *, *, #308, .F. ) ;
#195 = EDGE_LOOP ( 'NONE', ( #208, #31, #32, #201 ) ) ;
#196 = ORIENTED_EDGE ( 'NONE', *, *, #303, .T. ) ;
#197 = CARTESIAN_POINT ( 'NONE',  ( -0.1082531754730547829, -0.1874999999999999722, -0.000000000000000000 ) ) ;
#198 = AXIS2_PLACEMENT_3D ( 'NONE', #215, #82, #273 ) ;
#199 = ADVANCED_FACE ( 'NONE', ( #289 ), #317, .T. ) ;
#200 = ORIENTED_EDGE ( 'NONE', *, *, #218, .F. ) ;
#201 = ORIENTED_EDGE ( 'NONE', *, *, #18, .T. ) ;
#202 = DIRECTION ( 'NONE',  ( 1.000000000000000000, 0.000000000000000000, 0.000000000000000000 ) ) ;
#203 = CIRCLE ( 'NONE', #20, 0.3937007874015748254 ) ;
#204 = ORIENTED_EDGE ( 'NONE', *, *, #133, .F. ) ;
#205 = ORIENTED_EDGE ( 'NONE', *, *, #6, .T. ) ;
#206 = DIRECTION ( 'NONE',  ( -1.000000000000000000, 0.000000000000000000, 0.000000000000000000 ) ) ;
#207 = ADVANCED_FACE ( 'NONE', ( #176 ), #37, .T. ) ;
#208 = ORIENTED_EDGE ( 'NONE', *, *, #166, .T. ) ;
#209 = DIRECTION ( 'NONE',  ( -0.000000000000000000, -0.000000000000000000, 1.000000000000000000 ) ) ;
#210 = CARTESIAN_POINT ( 'NONE',  ( 0.3937007874015748254, -4.821444091131312140E-17, 0.000000000000000000 ) ) ;
#211 = VECTOR ( 'NONE', #213, 39.37007874015748143 ) ;
#212 = LINE ( 'NONE', #320, #300 ) ;
#213 = DIRECTION ( 'NONE',  ( -0.5000000000000001110, 0.8660254037844385966, 0.000000000000000000 ) ) ;
#214 = SURFACE_STYLE_FILL_AREA ( #264 ) ;
#215 = CARTESIAN_POINT ( 'NONE',  ( 0.1082531754730547829, 0.1875000000000000555, -0.1000000000000000056 ) ) ;
#216 = AXIS2_PLACEMENT_3D ( 'NONE', #3, #164, #30 ) ;
#217 = PLANE ( 'NONE',  #249 ) ;
#218 = EDGE_CURVE ( 'NONE', #58, #91, #41, .T. ) ;
#219 =( LENGTH_UNIT ( ) NAMED_UNIT ( * ) SI_UNIT ( $, .METRE. ) );
#220 = CARTESIAN_POINT ( 'NONE',  ( 0.1082531754730549634, -0.1874999999999999167, -0.1000000000000000056 ) ) ;
#221 =( NAMED_UNIT ( * ) SI_UNIT ( $, .STERADIAN. ) SOLID_ANGLE_UNIT ( ) );
#222 = PRODUCT_DEFINITION_SHAPE ( 'NONE', 'NONE',  #159 ) ;
#223 = LENGTH_MEASURE_WITH_UNIT ( LENGTH_MEASURE( 0.02539999999999999897 ), #219 );
#224 = EDGE_CURVE ( 'NONE', #58, #228, #246, .T. ) ;
#225 = DIRECTION ( 'NONE',  ( -0.000000000000000000, -0.000000000000000000, 1.000000000000000000 ) ) ;
#226 = VECTOR ( 'NONE', #155, 39.37007874015748143 ) ;
#227 = PRODUCT_CONTEXT ( 'NONE', #26, 'mechanical' ) ;
#228 = VERTEX_POINT ( 'NONE', #293 ) ;
#229 = ORIENTED_EDGE ( 'NONE', *, *, #281, .F. ) ;
#230 = ADVANCED_FACE ( 'NONE', ( #44 ), #74, .T. ) ;
#231 = ORIENTED_EDGE ( 'NONE', *, *, #98, .F. ) ;
#232 = VERTEX_POINT ( 'NONE', #189 ) ;
#233 =( GEOMETRIC_REPRESENTATION_CONTEXT ( 3 ) GLOBAL_UNCERTAINTY_ASSIGNED_CONTEXT ( ( #270 ) ) GLOBAL_UNIT_ASSIGNED_CONTEXT ( ( #296, #111, #221 ) ) REPRESENTATION_CONTEXT ( 'NONE', 'WORKASPACE' ) );
#234 = FACE_OUTER_BOUND ( 'NONE', #195, .T. ) ;
#235 = DIRECTION ( 'NONE',  ( -0.5000000000000002220, -0.8660254037844384856, -0.000000000000000000 ) ) ;
#236 = EDGE_CURVE ( 'NONE', #228, #11, #19, .T. ) ;
#237 = CARTESIAN_POINT ( 'NONE',  ( -0.1082531754730547829, -0.1874999999999999722, -0.1000000000000000056 ) ) ;
#238 = VECTOR ( 'NONE', #235, 39.37007874015749564 ) ;
#239 = CARTESIAN_POINT ( 'NONE',  ( 0.2165063509461097047, -7.084637897906329745E-17, -0.1000000000000000056 ) ) ;
#240 = LINE ( 'NONE', #237, #226 ) ;
#241 = ADVANCED_FACE ( 'NONE', ( #161, #247 ), #323, .F. ) ;
#242 = FACE_BOUND ( 'NONE', #283, .T. ) ;
#243 = AXIS2_PLACEMENT_3D ( 'NONE', #63, #286, #206 ) ;
#244 = DIRECTION ( 'NONE',  ( 1.000000000000000000, 3.154466349054401728E-16, 0.000000000000000000 ) ) ;
#245 = ADVANCED_BREP_SHAPE_REPRESENTATION ( 'am-3947-100 375H x 100IN Spacer', ( #345, #115 ), #233 ) ;
#246 = LINE ( 'NONE', #22, #167 ) ;
#247 = FACE_BOUND ( 'NONE', #139, .T. ) ;
#248 = EDGE_CURVE ( 'NONE', #334, #58, #305, .T. ) ;
#249 = AXIS2_PLACEMENT_3D ( 'NONE', #135, #326, #79 ) ;
#250 = DIRECTION ( 'NONE',  ( -0.000000000000000000, -0.000000000000000000, 1.000000000000000000 ) ) ;
#251 = SURFACE_SIDE_STYLE ('',( #276 ) ) ;
#252 = CARTESIAN_POINT ( 'NONE',  ( -0.2165063509461097047, 3.211045840221350913E-17, -0.1000000000000000056 ) ) ;
#253 = EDGE_CURVE ( 'NONE', #171, #143, #49, .T. ) ;
#254 = DIRECTION ( 'NONE',  ( -0.000000000000000000, -0.000000000000000000, 1.000000000000000000 ) ) ;
#255 = CARTESIAN_POINT ( 'NONE',  ( 0.2165063509461097047, -7.084637897906329745E-17, -0.1000000000000000056 ) ) ;
#256 = ORIENTED_EDGE ( 'NONE', *, *, #65, .T. ) ;
#257 = CARTESIAN_POINT ( 'NONE',  ( -0.1082531754730548107, 0.1875000000000000555, -0.1000000000000000056 ) ) ;
#258 = ORIENTED_EDGE ( 'NONE', *, *, #154, .F. ) ;
#259 = VERTEX_POINT ( 'NONE', #24 ) ;
#260 = LINE ( 'NONE', #337, #238 ) ;
#261 = ORIENTED_EDGE ( 'NONE', *, *, #110, .F. ) ;
#262 = DIRECTION ( 'NONE',  ( -0.8660254037844385966, -0.5000000000000001110, 0.000000000000000000 ) ) ;
#263 = ORIENTED_EDGE ( 'NONE', *, *, #303, .F. ) ;
#264 = FILL_AREA_STYLE ('',( #136 ) ) ;
#265 = CARTESIAN_POINT ( 'NONE',  ( 0.000000000000000000, 0.000000000000000000, -0.1000000000000000056 ) ) ;
#266 = CARTESIAN_POINT ( 'NONE',  ( 0.000000000000000000, 0.000000000000000000, -0.1000000000000000056 ) ) ;
#267 = ADVANCED_FACE ( 'NONE', ( #103 ), #217, .T. ) ;
#268 = CARTESIAN_POINT ( 'NONE',  ( 0.000000000000000000, 0.000000000000000000, -0.1000000000000000056 ) ) ;
#269 = DIRECTION ( 'NONE',  ( 0.5000000000000000000, 0.8660254037844385966, 0.000000000000000000 ) ) ;
#270 = UNCERTAINTY_MEASURE_WITH_UNIT (LENGTH_MEASURE( 1.000000000000000082E-05 ), #296, 'distance_accuracy_value', 'NONE');
#271 = CIRCLE ( 'NONE', #45, 0.3937007874015748254 ) ;
#272 = VECTOR ( 'NONE', #183, 39.37007874015748854 ) ;
#273 = DIRECTION ( 'NONE',  ( 0.000000000000000000, 0.000000000000000000, 1.000000000000000000 ) ) ;
#274 = CARTESIAN_POINT ( 'NONE',  ( -0.1082531754730547829, -0.1874999999999999722, -0.1000000000000000056 ) ) ;
#275 = FACE_OUTER_BOUND ( 'NONE', #168, .T. ) ;
#276 = SURFACE_STYLE_FILL_AREA ( #50 ) ;
#277 = VECTOR ( 'NONE', #254, 39.37007874015748143 ) ;
#278 = CARTESIAN_POINT ( 'NONE',  ( 0.000000000000000000, 0.000000000000000000, 0.000000000000000000 ) ) ;
#279 = LINE ( 'NONE', #197, #1 ) ;
#280 = ORIENTED_EDGE ( 'NONE', *, *, #85, .F. ) ;
#281 = EDGE_CURVE ( 'NONE', #11, #171, #104, .T. ) ;
#282 = VERTEX_POINT ( 'NONE', #252 ) ;
#283 = EDGE_LOOP ( 'NONE', ( #256, #196, #151, #178, #156, #169 ) ) ;
#284 = SHAPE_DEFINITION_REPRESENTATION ( #222, #245 ) ;
#285 = ORIENTED_EDGE ( 'NONE', *, *, #69, .F. ) ;
#286 = DIRECTION ( 'NONE',  ( -0.000000000000000000, -0.000000000000000000, 1.000000000000000000 ) ) ;
#287 = ORIENTED_EDGE ( 'NONE', *, *, #184, .F. ) ;
#288 = PLANE ( 'NONE',  #15 ) ;
#289 = FACE_OUTER_BOUND ( 'NONE', #147, .T. ) ;
#290 = VECTOR ( 'NONE', #319, 39.37007874015748143 ) ;
#291 = STYLED_ITEM ( 'NONE', ( #114 ), #245 ) ;
#292 = CARTESIAN_POINT ( 'NONE',  ( -0.2165063509461097047, 3.211045840221350913E-17, -0.1000000000000000056 ) ) ;
#293 = CARTESIAN_POINT ( 'NONE',  ( 0.1082531754730549634, -0.1874999999999999167, 0.000000000000000000 ) ) ;
#294 = DIRECTION ( 'NONE',  ( -0.000000000000000000, -0.000000000000000000, 1.000000000000000000 ) ) ;
#295 = DIRECTION ( 'NONE',  ( -1.000000000000000000, 0.000000000000000000, 0.000000000000000000 ) ) ;
#296 =( CONVERSION_BASED_UNIT ( 'INCH', #223 ) LENGTH_UNIT ( ) NAMED_UNIT ( #5 ) );
#297 =( CONVERSION_BASED_UNIT ( 'INCH', #47 ) LENGTH_UNIT ( ) NAMED_UNIT ( #121 ) );
#298 = ADVANCED_FACE ( 'NONE', ( #275 ), #349, .T. ) ;
#299 = APPLICATION_PROTOCOL_DEFINITION ( 'draft international standard', 'automotive_design', 1998, #26 ) ;
#300 = VECTOR ( 'NONE', #75, 39.37007874015748143 ) ;
#301 =( NAMED_UNIT ( * ) SI_UNIT ( $, .STERADIAN. ) SOLID_ANGLE_UNIT ( ) );
#302 = CARTESIAN_POINT ( 'NONE',  ( -0.1082531754730548107, 0.1875000000000000555, -0.1000000000000000056 ) ) ;
#303 = EDGE_CURVE ( 'NONE', #232, #118, #212, .T. ) ;
#304 = CARTESIAN_POINT ( 'NONE',  ( 0.2165063509461097047, -7.084637897906329745E-17, 0.000000000000000000 ) ) ;
#305 = LINE ( 'NONE', #274, #144 ) ;
#306 = ORIENTED_EDGE ( 'NONE', *, *, #193, .F. ) ;
#307 = ORIENTED_EDGE ( 'NONE', *, *, #253, .F. ) ;
#308 = EDGE_CURVE ( 'NONE', #40, #153, #23, .T. ) ;
#309 = PLANE ( 'NONE',  #192 ) ;
#310 = CARTESIAN_POINT ( 'NONE',  ( -0.2165063509461097047, 3.211045840221350913E-17, 0.000000000000000000 ) ) ;
#311 = DIMENSIONAL_EXPONENTS ( 1.000000000000000000, 0.000000000000000000, 0.000000000000000000, 0.000000000000000000, 0.000000000000000000, 0.000000000000000000, 0.000000000000000000 ) ;
#312 =( GEOMETRIC_REPRESENTATION_CONTEXT ( 3 ) GLOBAL_UNCERTAINTY_ASSIGNED_CONTEXT ( ( #346 ) ) GLOBAL_UNIT_ASSIGNED_CONTEXT ( ( #297, #84, #301 ) ) REPRESENTATION_CONTEXT ( 'NONE', 'WORKASPACE' ) );
#313 = ORIENTED_EDGE ( 'NONE', *, *, #120, .F. ) ;
#314 = ORIENTED_EDGE ( 'NONE', *, *, #133, .T. ) ;
#315 = LINE ( 'NONE', #12, #34 ) ;
#316 = EDGE_CURVE ( 'NONE', #282, #259, #21, .T. ) ;
#317 = CYLINDRICAL_SURFACE ( 'NONE', #243, 0.3937007874015748254 ) ;
#318 = STYLED_ITEM ( 'NONE', ( #163 ), #345 ) ;
#319 = DIRECTION ( 'NONE',  ( -0.000000000000000000, -0.000000000000000000, 1.000000000000000000 ) ) ;
#320 = CARTESIAN_POINT ( 'NONE',  ( 0.1082531754730547829, 0.1875000000000000555, -0.1000000000000000056 ) ) ;
#321 = VECTOR ( 'NONE', #152, 39.37007874015748143 ) ;
#322 = SURFACE_STYLE_USAGE ( .BOTH. , #108 ) ;
#323 = PLANE ( 'NONE',  #55 ) ;
#324 = ADVANCED_FACE ( 'NONE', ( #347 ), #109, .T. ) ;
#325 =( LENGTH_UNIT ( ) NAMED_UNIT ( * ) SI_UNIT ( $, .METRE. ) );
#326 = DIRECTION ( 'NONE',  ( -3.154466349054401728E-16, 1.000000000000000000, 0.000000000000000000 ) ) ;
#327 = PRESENTATION_LAYER_ASSIGNMENT (  '', '', ( #318 ) ) ;
#328 = DIRECTION ( 'NONE',  ( -0.5000000000000002220, -0.8660254037844384856, -0.000000000000000000 ) ) ;
#329 = EDGE_LOOP ( 'NONE', ( #205, #96, #330, #4 ) ) ;
#330 = ORIENTED_EDGE ( 'NONE', *, *, #248, .F. ) ;
#331 = ORIENTED_EDGE ( 'NONE', *, *, #224, .T. ) ;
#332 = VECTOR ( 'NONE', #146, 39.37007874015748143 ) ;
#333 = PLANE ( 'NONE',  #216 ) ;
#334 = VERTEX_POINT ( 'NONE', #106 ) ;
#335 = CARTESIAN_POINT ( 'NONE',  ( -0.3937007874015748254, 0.000000000000000000, -0.1000000000000000056 ) ) ;
#336 = EDGE_LOOP ( 'NONE', ( #7, #258, #200, #331 ) ) ;
#337 = CARTESIAN_POINT ( 'NONE',  ( -0.1082531754730548107, 0.1875000000000000555, 0.000000000000000000 ) ) ;
#338 = CARTESIAN_POINT ( 'NONE',  ( 0.1082531754730547829, 0.1875000000000000555, 0.000000000000000000 ) ) ;
#339 = DIRECTION ( 'NONE',  ( -0.000000000000000000, -0.000000000000000000, 1.000000000000000000 ) ) ;
#340 = UNCERTAINTY_MEASURE_WITH_UNIT (LENGTH_MEASURE( 1.000000000000000082E-05 ), #185, 'distance_accuracy_value', 'NONE');
#341 = LINE ( 'NONE', #310, #321 ) ;
#342 = MECHANICAL_DESIGN_GEOMETRIC_PRESENTATION_REPRESENTATION (  '', ( #318 ), #9 ) ;
#343 = EDGE_CURVE ( 'NONE', #232, #171, #190, .T. ) ;
#344 = DIRECTION ( 'NONE',  ( 0.000000000000000000, 0.000000000000000000, -1.000000000000000000 ) ) ;
#345 = MANIFOLD_SOLID_BREP ( 'Body-Move/Copy1', #186 ) ;
#346 = UNCERTAINTY_MEASURE_WITH_UNIT (LENGTH_MEASURE( 1.000000000000000082E-05 ), #297, 'distance_accuracy_value', 'NONE');
#347 = FACE_OUTER_BOUND ( 'NONE', #336, .T. ) ;
#348 =( LENGTH_UNIT ( ) NAMED_UNIT ( * ) SI_UNIT ( $, .METRE. ) );
#349 = PLANE ( 'NONE',  #198 ) ;
#350 = LENGTH_MEASURE_WITH_UNIT ( LENGTH_MEASURE( 0.02539999999999999897 ), #325 );
#351 = DIRECTION ( 'NONE',  ( -0.8660254037844385966, 0.5000000000000001110, 0.000000000000000000 ) ) ;
ENDSEC;
END-ISO-10303-21;
